ISO-10303-21;
HEADER;
FILE_DESCRIPTION (( 'STEP AP203' ),
    '1' );
FILE_NAME ('BK7-LPBSC-25.4-633.STEP',
    '2020-12-22T03:14:54',
    ( '' ),
    ( '' ),
    'SwSTEP 2.0',
    'SolidWorks 2020',
    '' );
FILE_SCHEMA (( 'CONFIG_CONTROL_DESIGN' ));
ENDSEC;

DATA;
#1 = CARTESIAN_POINT ( 'NONE',  ( -12.70000000000000284, 12.70000000000000284, 12.69999999999999929 ) ) ;
#2 = UNCERTAINTY_MEASURE_WITH_UNIT (LENGTH_MEASURE( 1.000000000000000082E-05 ), #176, 'distance_accuracy_value', 'NONE');
#3 = APPROVAL_STATUS ( 'not_yet_approved' ) ;
#4 = EDGE_LOOP ( 'NONE', ( #212, #69, #35 ) ) ;
#5 = ADVANCED_FACE ( 'NONE', ( #135 ), #266, .F. ) ;
#6 = DIRECTION ( 'NONE',  ( 0.7071067811865475727, -0.7071067811865475727, 0.000000000000000000 ) ) ;
#7 = DIRECTION ( 'NONE',  ( -0.7071067811865474617, -0.7071067811865474617, 0.000000000000000000 ) ) ;
#8 = CC_DESIGN_DATE_AND_TIME_ASSIGNMENT ( #26, #80, ( #260 ) ) ;
#9 = DIRECTION ( 'NONE',  ( 1.000000000000000000, 0.000000000000000000, 0.000000000000000000 ) ) ;
#10 = CLOSED_SHELL ( 'NONE', ( #46, #5, #245, #312, #303 ) ) ;
#11 = APPROVAL_PERSON_ORGANIZATION ( #231, #316, #300 ) ;
#12 = EDGE_LOOP ( 'NONE', ( #279, #162, #137 ) ) ;
#13 = ADVANCED_BREP_SHAPE_REPRESENTATION ( 'BK7-LPBSC-25.4-633', ( #18, #131, #288 ), #40 ) ;
#14 = VECTOR ( 'NONE', #76, 999.9999999999998863 ) ;
#15 = DIRECTION ( 'NONE',  ( -0.7071067811865474617, -0.7071067811865474617, 0.000000000000000000 ) ) ;
#16 = FACE_OUTER_BOUND ( 'NONE', #32, .T. ) ;
#17 = FACE_OUTER_BOUND ( 'NONE', #93, .T. ) ;
#18 = MANIFOLD_SOLID_BREP ( 'Í¹Ì¨-À', #261 ) ;
#19 = DIRECTION ( 'NONE',  ( -2.220446049250312588E-16, 1.000000000000000000, 0.000000000000000000 ) ) ;
#20 = PERSON_AND_ORGANIZATION ( #219, #171 ) ;
#21 = LINE ( 'NONE', #175, #126 ) ;
#22 = AXIS2_PLACEMENT_3D ( 'NONE', #79, #293, #74 ) ;
#23 = DIRECTION ( 'NONE',  ( -0.000000000000000000, -0.000000000000000000, -1.000000000000000000 ) ) ;
#24 = DIRECTION ( 'NONE',  ( -2.220446049250312588E-16, 1.000000000000000000, 0.000000000000000000 ) ) ;
#25 = LINE ( 'NONE', #122, #262 ) ;
#26 = DATE_AND_TIME ( #82, #244 ) ;
#27 = DATE_AND_TIME ( #157, #280 ) ;
#28 = EDGE_CURVE ( 'NONE', #258, #287, #283, .T. ) ;
#29 = PERSON_AND_ORGANIZATION ( #219, #171 ) ;
#30 = ORIENTED_EDGE ( 'NONE', *, *, #109, .F. ) ;
#31 = APPROVAL_DATE_TIME ( #105, #115 ) ;
#32 = EDGE_LOOP ( 'NONE', ( #209, #259, #284, #37 ) ) ;
#33 = APPROVAL ( #3, 'UNSPECIFIED' ) ;
#34 = ORIENTED_EDGE ( 'NONE', *, *, #109, .T. ) ;
#35 = ORIENTED_EDGE ( 'NONE', *, *, #233, .T. ) ;
#36 = CARTESIAN_POINT ( 'NONE',  ( 0.000000000000000000, 0.000000000000000000, -12.69999999999999929 ) ) ;
#37 = ORIENTED_EDGE ( 'NONE', *, *, #187, .T. ) ;
#38 = EDGE_CURVE ( 'NONE', #86, #196, #217, .T. ) ;
#39 = FACE_OUTER_BOUND ( 'NONE', #4, .T. ) ;
#40 =( GEOMETRIC_REPRESENTATION_CONTEXT ( 3 ) GLOBAL_UNCERTAINTY_ASSIGNED_CONTEXT ( ( #2 ) ) GLOBAL_UNIT_ASSIGNED_CONTEXT ( ( #176, #121, #167 ) ) REPRESENTATION_CONTEXT ( 'NONE', 'WORKASPACE' ) );
#41 = ORIENTED_EDGE ( 'NONE', *, *, #139, .F. ) ;
#42 = VECTOR ( 'NONE', #168, 1000.000000000000000 ) ;
#43 = PRODUCT_DEFINITION_FORMATION_WITH_SPECIFIED_SOURCE ( 'ANY', '', #318, .NOT_KNOWN. ) ;
#44 = CARTESIAN_POINT ( 'NONE',  ( 12.69999999999999574, 12.69999999999999574, 12.69999999999999929 ) ) ;
#45 = DIRECTION ( 'NONE',  ( -0.000000000000000000, 1.000000000000000000, -0.000000000000000000 ) ) ;
#46 = ADVANCED_FACE ( 'NONE', ( #72 ), #172, .F. ) ;
#47 = PERSON_AND_ORGANIZATION_ROLE ( 'design_owner' ) ;
#48 = CARTESIAN_POINT ( 'NONE',  ( 12.69999999999999929, -12.69999999999999929, -12.69999999999999929 ) ) ;
#49 = PLANE ( 'NONE',  #62 ) ;
#50 = DIRECTION ( 'NONE',  ( -2.220446049250312588E-16, 1.000000000000000000, 0.000000000000000000 ) ) ;
#51 = CALENDAR_DATE ( 2020, 22, 12 ) ;
#52 = COORDINATED_UNIVERSAL_TIME_OFFSET ( 8, 0, .AHEAD. ) ;
#53 = EDGE_CURVE ( 'NONE', #241, #307, #240, .T. ) ;
#54 = CALENDAR_DATE ( 2020, 22, 12 ) ;
#55 = CC_DESIGN_PERSON_AND_ORGANIZATION_ASSIGNMENT ( #173, #47, ( #318 ) ) ;
#56 = PERSON_AND_ORGANIZATION ( #219, #171 ) ;
#57 = VERTEX_POINT ( 'NONE', #63 ) ;
#58 = VERTEX_POINT ( 'NONE', #238 ) ;
#59 = CARTESIAN_POINT ( 'NONE',  ( 12.69999999999999929, 12.69999999999999929, -12.69999999999999929 ) ) ;
#60 = ORIENTED_EDGE ( 'NONE', *, *, #187, .F. ) ;
#61 = PRODUCT_RELATED_PRODUCT_CATEGORY ( 'detail', '', ( #318 ) ) ;
#62 = AXIS2_PLACEMENT_3D ( 'NONE', #44, #101, #223 ) ;
#63 = CARTESIAN_POINT ( 'NONE',  ( -12.69999999999999574, -12.69999999999999396, 12.69999999999999929 ) ) ;
#64 = EDGE_LOOP ( 'NONE', ( #88, #282, #232, #207 ) ) ;
#65 = DIRECTION ( 'NONE',  ( 1.000000000000000000, -2.220446049250312588E-16, 0.000000000000000000 ) ) ;
#66 = ADVANCED_FACE ( 'NONE', ( #16 ), #221, .F. ) ;
#67 = VECTOR ( 'NONE', #23, 1000.000000000000000 ) ;
#68 = EDGE_LOOP ( 'NONE', ( #160, #30, #184 ) ) ;
#69 = ORIENTED_EDGE ( 'NONE', *, *, #38, .T. ) ;
#70 = CARTESIAN_POINT ( 'NONE',  ( 0.000000000000000000, 0.000000000000000000, 0.000000000000000000 ) ) ;
#71 = EDGE_CURVE ( 'NONE', #307, #58, #185, .T. ) ;
#72 = FACE_OUTER_BOUND ( 'NONE', #64, .T. ) ;
#73 = VECTOR ( 'NONE', #19, 1000.000000000000000 ) ;
#74 = DIRECTION ( 'NONE',  ( 1.000000000000000000, 0.000000000000000000, 0.000000000000000000 ) ) ;
#75 = CARTESIAN_POINT ( 'NONE',  ( 0.000000000000000000, 0.000000000000000000, -12.69999999999999929 ) ) ;
#76 = DIRECTION ( 'NONE',  ( -0.7071067811865475727, -0.7071067811865475727, 0.000000000000000000 ) ) ;
#77 = EDGE_CURVE ( 'NONE', #58, #241, #161, .T. ) ;
#78 = CARTESIAN_POINT ( 'NONE',  ( 12.69999999999999929, 12.69999999999999929, 12.69999999999999929 ) ) ;
#79 = CARTESIAN_POINT ( 'NONE',  ( 0.000000000000000000, 0.000000000000000000, 12.69999999999999929 ) ) ;
#80 = DATE_TIME_ROLE ( 'creation_date' ) ;
#81 = CARTESIAN_POINT ( 'NONE',  ( 12.69999999999999929, 12.69999999999999929, 12.69999999999999929 ) ) ;
#82 = CALENDAR_DATE ( 2020, 22, 12 ) ;
#83 = PERSON_AND_ORGANIZATION_ROLE ( 'classification_officer' ) ;
#84 = APPROVAL_ROLE ( '' ) ;
#85 = ORIENTED_EDGE ( 'NONE', *, *, #53, .T. ) ;
#86 = VERTEX_POINT ( 'NONE', #87 ) ;
#87 = CARTESIAN_POINT ( 'NONE',  ( -12.69999999999999751, -12.69999999999999929, 12.69999999999999929 ) ) ;
#88 = ORIENTED_EDGE ( 'NONE', *, *, #243, .F. ) ;
#89 = AXIS2_PLACEMENT_3D ( 'NONE', #144, #6, #314 ) ;
#90 = CC_DESIGN_APPROVAL ( #115, ( #260 ) ) ;
#91 = CARTESIAN_POINT ( 'NONE',  ( 12.69999999999999574, 12.69999999999999574, 12.69999999999999929 ) ) ;
#92 = CC_DESIGN_DATE_AND_TIME_ASSIGNMENT ( #27, #178, ( #199 ) ) ;
#93 = EDGE_LOOP ( 'NONE', ( #247, #304, #265, #186 ) ) ;
#94 = ADVANCED_FACE ( 'NONE', ( #114 ), #188, .F. ) ;
#95 = CARTESIAN_POINT ( 'NONE',  ( -12.69999999999999751, -12.69999999999999929, 12.69999999999999929 ) ) ;
#96 = MECHANICAL_CONTEXT ( 'NONE', #170, 'mechanical' ) ;
#97 = CARTESIAN_POINT ( 'NONE',  ( 12.69999999999999929, 12.69999999999999929, 12.69999999999999929 ) ) ;
#98 = AXIS2_PLACEMENT_3D ( 'NONE', #319, #321, #24 ) ;
#99 = LINE ( 'NONE', #203, #165 ) ;
#100 = DIRECTION ( 'NONE',  ( -1.000000000000000000, 0.000000000000000000, 0.000000000000000000 ) ) ;
#101 = DIRECTION ( 'NONE',  ( 2.220446049250312588E-16, -1.000000000000000000, 0.000000000000000000 ) ) ;
#102 = DIRECTION ( 'NONE',  ( 0.000000000000000000, 0.000000000000000000, 1.000000000000000000 ) ) ;
#103 = LINE ( 'NONE', #95, #120 ) ;
#104 = AXIS2_PLACEMENT_3D ( 'NONE', #192, #271, #116 ) ;
#105 = DATE_AND_TIME ( #51, #229 ) ;
#106 = APPROVAL_ROLE ( '' ) ;
#107 = EDGE_LOOP ( 'NONE', ( #248, #301, #215 ) ) ;
#108 = PRODUCT_DEFINITION_SHAPE ( 'NONE', 'NONE',  #260 ) ;
#109 = EDGE_CURVE ( 'NONE', #183, #236, #310, .T. ) ;
#110 = CC_DESIGN_SECURITY_CLASSIFICATION ( #199, ( #43 ) ) ;
#111 = ORIENTED_EDGE ( 'NONE', *, *, #28, .F. ) ;
#112 = CARTESIAN_POINT ( 'NONE',  ( -12.69999999999999751, -12.69999999999999929, -12.69999999999999929 ) ) ;
#113 = VERTEX_POINT ( 'NONE', #163 ) ;
#114 = FACE_OUTER_BOUND ( 'NONE', #12, .T. ) ;
#115 = APPROVAL ( #119, 'UNSPECIFIED' ) ;
#116 = DIRECTION ( 'NONE',  ( 0.7071067811865475727, 0.7071067811865475727, 0.000000000000000000 ) ) ;
#117 = PLANE ( 'NONE',  #189 ) ;
#118 = CARTESIAN_POINT ( 'NONE',  ( 12.69999999999999574, 12.69999999999999574, 12.69999999999999929 ) ) ;
#119 = APPROVAL_STATUS ( 'not_yet_approved' ) ;
#120 = VECTOR ( 'NONE', #194, 1000.000000000000000 ) ;
#121 =( NAMED_UNIT ( * ) PLANE_ANGLE_UNIT ( ) SI_UNIT ( $, .RADIAN. ) );
#122 = CARTESIAN_POINT ( 'NONE',  ( 12.69999999999999929, -12.69999999999999929, 12.69999999999999929 ) ) ;
#123 = DIRECTION ( 'NONE',  ( 0.000000000000000000, 0.000000000000000000, -1.000000000000000000 ) ) ;
#124 = ADVANCED_FACE ( 'NONE', ( #39 ), #138, .T. ) ;
#125 = PERSON_AND_ORGANIZATION_ROLE ( 'creator' ) ;
#126 = VECTOR ( 'NONE', #50, 1000.000000000000000 ) ;
#127 = VECTOR ( 'NONE', #7, 1000.000000000000114 ) ;
#128 = COORDINATED_UNIVERSAL_TIME_OFFSET ( 8, 0, .AHEAD. ) ;
#129 = LOCAL_TIME ( 11, 14, 54.00000000000000000, #128 ) ;
#130 = PERSON_AND_ORGANIZATION ( #219, #171 ) ;
#131 = MANIFOLD_SOLID_BREP ( '¾µÏ', #10 ) ;
#132 = PERSON_AND_ORGANIZATION ( #219, #171 ) ;
#133 = ORIENTED_EDGE ( 'NONE', *, *, #233, .F. ) ;
#134 = ORIENTED_EDGE ( 'NONE', *, *, #298, .F. ) ;
#135 = FACE_OUTER_BOUND ( 'NONE', #235, .T. ) ;
#136 = DIRECTION ( 'NONE',  ( -0.000000000000000000, 0.000000000000000000, 1.000000000000000000 ) ) ;
#137 = ORIENTED_EDGE ( 'NONE', *, *, #77, .F. ) ;
#138 = PLANE ( 'NONE',  #22 ) ;
#139 = EDGE_CURVE ( 'NONE', #158, #258, #21, .T. ) ;
#140 = DIRECTION ( 'NONE',  ( 0.000000000000000000, -0.000000000000000000, 1.000000000000000000 ) ) ;
#141 = APPROVAL_PERSON_ORGANIZATION ( #132, #33, #106 ) ;
#142 = DIRECTION ( 'NONE',  ( 1.000000000000000000, 0.000000000000000000, 0.000000000000000000 ) ) ;
#143 = DIRECTION ( 'NONE',  ( 0.000000000000000000, 0.000000000000000000, -1.000000000000000000 ) ) ;
#144 = CARTESIAN_POINT ( 'NONE',  ( 12.69999999999999929, 12.69999999999999929, 12.69999999999999929 ) ) ;
#145 = EDGE_CURVE ( 'NONE', #236, #57, #204, .T. ) ;
#146 = CARTESIAN_POINT ( 'NONE',  ( 12.69999999999999574, 12.69999999999999574, -12.69999999999999929 ) ) ;
#147 = CARTESIAN_POINT ( 'NONE',  ( -12.70000000000000284, 12.70000000000000284, 12.69999999999999929 ) ) ;
#148 = CC_DESIGN_PERSON_AND_ORGANIZATION_ASSIGNMENT ( #130, #83, ( #199 ) ) ;
#149 = DIRECTION ( 'NONE',  ( -2.220446049250312588E-16, 1.000000000000000000, 0.000000000000000000 ) ) ;
#150 = CARTESIAN_POINT ( 'NONE',  ( -12.69999999999999574, -12.69999999999999396, 12.69999999999999929 ) ) ;
#151 = VECTOR ( 'NONE', #15, 1000.000000000000114 ) ;
#152 = COORDINATED_UNIVERSAL_TIME_OFFSET ( 8, 0, .AHEAD. ) ;
#153 = DESIGN_CONTEXT ( 'detailed design', #191, 'design' ) ;
#154 = VECTOR ( 'NONE', #123, 1000.000000000000000 ) ;
#155 = DATE_AND_TIME ( #54, #292 ) ;
#156 = EDGE_LOOP ( 'NONE', ( #111, #239, #34, #291 ) ) ;
#157 = CALENDAR_DATE ( 2020, 22, 12 ) ;
#158 = VERTEX_POINT ( 'NONE', #297 ) ;
#159 = VECTOR ( 'NONE', #142, 1000.000000000000000 ) ;
#160 = ORIENTED_EDGE ( 'NONE', *, *, #145, .F. ) ;
#161 = LINE ( 'NONE', #112, #164 ) ;
#162 = ORIENTED_EDGE ( 'NONE', *, *, #53, .F. ) ;
#163 = CARTESIAN_POINT ( 'NONE',  ( 12.69999999999999929, 12.69999999999999929, 12.69999999999999929 ) ) ;
#164 = VECTOR ( 'NONE', #306, 1000.000000000000000 ) ;
#165 = VECTOR ( 'NONE', #143, 1000.000000000000000 ) ;
#166 = EDGE_CURVE ( 'NONE', #57, #183, #226, .T. ) ;
#167 =( NAMED_UNIT ( * ) SI_UNIT ( $, .STERADIAN. ) SOLID_ANGLE_UNIT ( ) );
#168 = DIRECTION ( 'NONE',  ( 1.000000000000000000, -2.220446049250312588E-16, 0.000000000000000000 ) ) ;
#169 = DIRECTION ( 'NONE',  ( 0.000000000000000000, 0.000000000000000000, 1.000000000000000000 ) ) ;
#170 = APPLICATION_CONTEXT ( 'configuration controlled 3d designs of mechanical parts and assemblies' ) ;
#171 = ORGANIZATION ( 'UNSPECIFIED', 'UNSPECIFIED', '' ) ;
#172 = PLANE ( 'NONE',  #104 ) ;
#173 = PERSON_AND_ORGANIZATION ( #219, #171 ) ;
#174 = LINE ( 'NONE', #78, #151 ) ;
#175 = CARTESIAN_POINT ( 'NONE',  ( -12.69999999999999574, -12.69999999999999396, -12.69999999999999929 ) ) ;
#176 =( LENGTH_UNIT ( ) NAMED_UNIT ( * ) SI_UNIT ( .MILLI., .METRE. ) );
#177 = DIRECTION ( 'NONE',  ( -0.000000000000000000, -0.000000000000000000, -1.000000000000000000 ) ) ;
#178 = DATE_TIME_ROLE ( 'classification_date' ) ;
#179 = LINE ( 'NONE', #97, #198 ) ;
#180 = COORDINATED_UNIVERSAL_TIME_OFFSET ( 8, 0, .AHEAD. ) ;
#181 = PERSON_AND_ORGANIZATION_ROLE ( 'design_supplier' ) ;
#182 = APPROVAL_DATE_TIME ( #155, #316 ) ;
#183 = VERTEX_POINT ( 'NONE', #147 ) ;
#184 = ORIENTED_EDGE ( 'NONE', *, *, #166, .F. ) ;
#185 = LINE ( 'NONE', #59, #127 ) ;
#186 = ORIENTED_EDGE ( 'NONE', *, *, #289, .T. ) ;
#187 = EDGE_CURVE ( 'NONE', #113, #307, #224, .T. ) ;
#188 = PLANE ( 'NONE',  #309 ) ;
#189 = AXIS2_PLACEMENT_3D ( 'NONE', #75, #267, #149 ) ;
#190 = ADVANCED_FACE ( 'NONE', ( #255 ), #317, .F. ) ;
#191 = APPLICATION_CONTEXT ( 'configuration controlled 3d designs of mechanical parts and assemblies' ) ;
#192 = CARTESIAN_POINT ( 'NONE',  ( 12.69999999999999574, 12.69999999999999574, 12.69999999999999929 ) ) ;
#193 = ORIENTED_EDGE ( 'NONE', *, *, #202, .T. ) ;
#194 = DIRECTION ( 'NONE',  ( -0.000000000000000000, -0.000000000000000000, -1.000000000000000000 ) ) ;
#195 = EDGE_CURVE ( 'NONE', #196, #241, #25, .T. ) ;
#196 = VERTEX_POINT ( 'NONE', #272 ) ;
#197 = VECTOR ( 'NONE', #65, 1000.000000000000000 ) ;
#198 = VECTOR ( 'NONE', #249, 1000.000000000000000 ) ;
#199 = SECURITY_CLASSIFICATION ( '', '', #257 ) ;
#200 = LINE ( 'NONE', #1, #154 ) ;
#201 = CARTESIAN_POINT ( 'NONE',  ( 12.69999999999999574, 12.69999999999999574, 12.69999999999999929 ) ) ;
#202 = EDGE_CURVE ( 'NONE', #183, #258, #200, .T. ) ;
#203 = CARTESIAN_POINT ( 'NONE',  ( -12.69999999999999574, -12.69999999999999396, 12.69999999999999929 ) ) ;
#204 = LINE ( 'NONE', #201, #308 ) ;
#205 = VECTOR ( 'NONE', #299, 1000.000000000000000 ) ;
#206 = CARTESIAN_POINT ( 'NONE',  ( 12.69999999999999574, 12.69999999999999574, 12.69999999999999929 ) ) ;
#207 = ORIENTED_EDGE ( 'NONE', *, *, #298, .T. ) ;
#208 = CALENDAR_DATE ( 2020, 22, 12 ) ;
#209 = ORIENTED_EDGE ( 'NONE', *, *, #71, .T. ) ;
#210 = CC_DESIGN_PERSON_AND_ORGANIZATION_ASSIGNMENT ( #56, #181, ( #43 ) ) ;
#211 = APPROVAL_PERSON_ORGANIZATION ( #20, #115, #84 ) ;
#212 = ORIENTED_EDGE ( 'NONE', *, *, #313, .T. ) ;
#213 = CARTESIAN_POINT ( 'NONE',  ( -12.69999999999999574, -12.69999999999999396, 12.69999999999999929 ) ) ;
#214 = DIRECTION ( 'NONE',  ( 1.000000000000000000, -2.220446049250312588E-16, 0.000000000000000000 ) ) ;
#215 = ORIENTED_EDGE ( 'NONE', *, *, #28, .T. ) ;
#216 = VECTOR ( 'NONE', #45, 1000.000000000000000 ) ;
#217 = LINE ( 'NONE', #305, #159 ) ;
#218 = ORIENTED_EDGE ( 'NONE', *, *, #166, .T. ) ;
#219 = PERSON ( 'UNSPECIFIED', 'UNSPECIFIED', 'UNSPECIFIED', ('UNSPECIFIED'), ('UNSPECIFIED'), ('UNSPECIFIED') ) ;
#220 = EDGE_CURVE ( 'NONE', #236, #287, #275, .T. ) ;
#221 = PLANE ( 'NONE',  #89 ) ;
#222 = CARTESIAN_POINT ( 'NONE',  ( 12.69999999999999574, 12.69999999999999574, -12.69999999999999929 ) ) ;
#223 = DIRECTION ( 'NONE',  ( 0.000000000000000000, 0.000000000000000000, 1.000000000000000000 ) ) ;
#224 = LINE ( 'NONE', #254, #67 ) ;
#225 = FACE_OUTER_BOUND ( 'NONE', #107, .T. ) ;
#226 = LINE ( 'NONE', #150, #73 ) ;
#227 = APPLICATION_PROTOCOL_DEFINITION ( 'international standard', 'config_control_design', 1994, #170 ) ;
#228 = COORDINATED_UNIVERSAL_TIME_OFFSET ( 8, 0, .AHEAD. ) ;
#229 = LOCAL_TIME ( 11, 14, 54.00000000000000000, #152 ) ;
#230 = APPROVAL_DATE_TIME ( #256, #33 ) ;
#231 = PERSON_AND_ORGANIZATION ( #219, #171 ) ;
#232 = ORIENTED_EDGE ( 'NONE', *, *, #145, .T. ) ;
#233 = EDGE_CURVE ( 'NONE', #196, #113, #179, .T. ) ;
#234 = PERSON_AND_ORGANIZATION_ROLE ( 'creator' ) ;
#235 = EDGE_LOOP ( 'NONE', ( #41, #134, #218, #193 ) ) ;
#236 = VERTEX_POINT ( 'NONE', #118 ) ;
#237 = CC_DESIGN_PERSON_AND_ORGANIZATION_ASSIGNMENT ( #29, #234, ( #260 ) ) ;
#238 = CARTESIAN_POINT ( 'NONE',  ( -12.69999999999999751, -12.69999999999999929, -12.69999999999999929 ) ) ;
#239 = ORIENTED_EDGE ( 'NONE', *, *, #202, .F. ) ;
#240 = LINE ( 'NONE', #286, #216 ) ;
#241 = VERTEX_POINT ( 'NONE', #48 ) ;
#242 = AXIS2_PLACEMENT_3D ( 'NONE', #251, #246, #140 ) ;
#243 = EDGE_CURVE ( 'NONE', #287, #158, #295, .T. ) ;
#244 = LOCAL_TIME ( 11, 14, 54.00000000000000000, #180 ) ;
#245 = ADVANCED_FACE ( 'NONE', ( #274 ), #49, .F. ) ;
#246 = DIRECTION ( 'NONE',  ( 0.000000000000000000, 1.000000000000000000, 0.000000000000000000 ) ) ;
#247 = ORIENTED_EDGE ( 'NONE', *, *, #77, .T. ) ;
#248 = ORIENTED_EDGE ( 'NONE', *, *, #243, .T. ) ;
#249 = DIRECTION ( 'NONE',  ( -0.000000000000000000, 1.000000000000000000, -0.000000000000000000 ) ) ;
#250 = APPLICATION_PROTOCOL_DEFINITION ( 'international standard', 'config_control_design', 1994, #191 ) ;
#251 = CARTESIAN_POINT ( 'NONE',  ( -12.69999999999999751, -12.69999999999999929, 12.69999999999999929 ) ) ;
#252 = AXIS2_PLACEMENT_3D ( 'NONE', #81, #100, #102 ) ;
#253 = CC_DESIGN_APPROVAL ( #316, ( #43 ) ) ;
#254 = CARTESIAN_POINT ( 'NONE',  ( 12.69999999999999929, 12.69999999999999929, 12.69999999999999929 ) ) ;
#255 = FACE_OUTER_BOUND ( 'NONE', #311, .T. ) ;
#256 = DATE_AND_TIME ( #208, #129 ) ;
#257 = SECURITY_CLASSIFICATION_LEVEL ( 'unclassified' ) ;
#258 = VERTEX_POINT ( 'NONE', #294 ) ;
#259 = ORIENTED_EDGE ( 'NONE', *, *, #289, .F. ) ;
#260 = PRODUCT_DEFINITION ( 'UNKNOWN', '', #43, #153 ) ;
#261 = CLOSED_SHELL ( 'NONE', ( #66, #285, #190, #124, #94 ) ) ;
#262 = VECTOR ( 'NONE', #177, 1000.000000000000000 ) ;
#263 = ORIENTED_EDGE ( 'NONE', *, *, #195, .T. ) ;
#264 = DIRECTION ( 'NONE',  ( 0.000000000000000000, 0.000000000000000000, 1.000000000000000000 ) ) ;
#265 = ORIENTED_EDGE ( 'NONE', *, *, #38, .F. ) ;
#266 = PLANE ( 'NONE',  #302 ) ;
#267 = DIRECTION ( 'NONE',  ( 0.000000000000000000, 0.000000000000000000, 1.000000000000000000 ) ) ;
#268 = CARTESIAN_POINT ( 'NONE',  ( 12.69999999999999574, 12.69999999999999574, -12.69999999999999929 ) ) ;
#269 = PLANE ( 'NONE',  #98 ) ;
#270 = CC_DESIGN_APPROVAL ( #33, ( #199 ) ) ;
#271 = DIRECTION ( 'NONE',  ( -0.7071067811865475727, 0.7071067811865475727, 0.000000000000000000 ) ) ;
#272 = CARTESIAN_POINT ( 'NONE',  ( 12.69999999999999929, -12.69999999999999929, 12.69999999999999929 ) ) ;
#273 = PLANE ( 'NONE',  #242 ) ;
#274 = FACE_OUTER_BOUND ( 'NONE', #156, .T. ) ;
#275 = LINE ( 'NONE', #206, #205 ) ;
#276 = SHAPE_DEFINITION_REPRESENTATION ( #108, #13 ) ;
#277 = CC_DESIGN_PERSON_AND_ORGANIZATION_ASSIGNMENT ( #281, #125, ( #43 ) ) ;
#278 = APPROVAL_STATUS ( 'not_yet_approved' ) ;
#279 = ORIENTED_EDGE ( 'NONE', *, *, #71, .F. ) ;
#280 = LOCAL_TIME ( 11, 14, 54.00000000000000000, #228 ) ;
#281 = PERSON_AND_ORGANIZATION ( #219, #171 ) ;
#282 = ORIENTED_EDGE ( 'NONE', *, *, #220, .F. ) ;
#283 = LINE ( 'NONE', #268, #42 ) ;
#284 = ORIENTED_EDGE ( 'NONE', *, *, #313, .F. ) ;
#285 = ADVANCED_FACE ( 'NONE', ( #17 ), #273, .F. ) ;
#286 = CARTESIAN_POINT ( 'NONE',  ( 12.69999999999999929, 12.69999999999999929, -12.69999999999999929 ) ) ;
#287 = VERTEX_POINT ( 'NONE', #146 ) ;
#288 = AXIS2_PLACEMENT_3D ( 'NONE', #70, #169, #315 ) ;
#289 = EDGE_CURVE ( 'NONE', #86, #58, #103, .T. ) ;
#290 = CARTESIAN_POINT ( 'NONE',  ( 12.69999999999999929, 12.69999999999999929, -12.69999999999999929 ) ) ;
#291 = ORIENTED_EDGE ( 'NONE', *, *, #220, .T. ) ;
#292 = LOCAL_TIME ( 11, 14, 54.00000000000000000, #52 ) ;
#293 = DIRECTION ( 'NONE',  ( -0.000000000000000000, 0.000000000000000000, 1.000000000000000000 ) ) ;
#294 = CARTESIAN_POINT ( 'NONE',  ( -12.70000000000000284, 12.70000000000000284, -12.69999999999999929 ) ) ;
#295 = LINE ( 'NONE', #222, #14 ) ;
#296 = FACE_OUTER_BOUND ( 'NONE', #68, .T. ) ;
#297 = CARTESIAN_POINT ( 'NONE',  ( -12.69999999999999574, -12.69999999999999396, -12.69999999999999929 ) ) ;
#298 = EDGE_CURVE ( 'NONE', #57, #158, #99, .T. ) ;
#299 = DIRECTION ( 'NONE',  ( 0.000000000000000000, 0.000000000000000000, -1.000000000000000000 ) ) ;
#300 = APPROVAL_ROLE ( '' ) ;
#301 = ORIENTED_EDGE ( 'NONE', *, *, #139, .T. ) ;
#302 = AXIS2_PLACEMENT_3D ( 'NONE', #213, #214, #264 ) ;
#303 = ADVANCED_FACE ( 'NONE', ( #225 ), #117, .F. ) ;
#304 = ORIENTED_EDGE ( 'NONE', *, *, #195, .F. ) ;
#305 = CARTESIAN_POINT ( 'NONE',  ( -12.69999999999999751, -12.69999999999999929, 12.69999999999999929 ) ) ;
#306 = DIRECTION ( 'NONE',  ( 1.000000000000000000, 0.000000000000000000, 0.000000000000000000 ) ) ;
#307 = VERTEX_POINT ( 'NONE', #290 ) ;
#308 = VECTOR ( 'NONE', #320, 999.9999999999998863 ) ;
#309 = AXIS2_PLACEMENT_3D ( 'NONE', #36, #136, #9 ) ;
#310 = LINE ( 'NONE', #91, #197 ) ;
#311 = EDGE_LOOP ( 'NONE', ( #85, #60, #133, #263 ) ) ;
#312 = ADVANCED_FACE ( 'NONE', ( #296 ), #269, .T. ) ;
#313 = EDGE_CURVE ( 'NONE', #113, #86, #174, .T. ) ;
#314 = DIRECTION ( 'NONE',  ( 0.7071067811865474617, 0.7071067811865474617, 0.000000000000000000 ) ) ;
#315 = DIRECTION ( 'NONE',  ( 1.000000000000000000, 0.000000000000000000, 0.000000000000000000 ) ) ;
#316 = APPROVAL ( #278, 'UNSPECIFIED' ) ;
#317 = PLANE ( 'NONE',  #252 ) ;
#318 = PRODUCT ( 'BK7-LPBSC-25.4-633', 'BK7-LPBSC-25.4-633', '', ( #96 ) ) ;
#319 = CARTESIAN_POINT ( 'NONE',  ( 0.000000000000000000, 0.000000000000000000, 12.69999999999999929 ) ) ;
#320 = DIRECTION ( 'NONE',  ( -0.7071067811865475727, -0.7071067811865475727, 0.000000000000000000 ) ) ;
#321 = DIRECTION ( 'NONE',  ( 0.000000000000000000, 0.000000000000000000, 1.000000000000000000 ) ) ;
ENDSEC;
END-ISO-10303-21;
